Hi, here are my two tabs for VH pieces. Could You tell me about any mistakes?
Fur elise intro (i think i tabbed slightly different version):


E E Q Q. Q E E E
E||-----------------------------------|
B||--1p--0----------------------3-----|
G||---------2----2-----------2--------|
D||-----------------------------------|
A||--0--------------------------------|
E||---------------------1-------------|



E E Q Q. H Q.
--------------------------------------------------|
--1p--0-------------------------------------------|
---------2----2-----------------------------------|
--------------------------------------------------|
--0-----------------------------------------------|
--------------3-----------------------------------|


E E Q Q. Q E E E E E Q Q. Q E E E
-----------------------------------|-----------------------------------|
--1p--0----------------------3-----|--1p--0----------------------3-----|
---------2----2-----------2--------|---------2----2-----------2--------|
-----------------------------------|-----------------------------------|
--0--------------------------------|--0--------------------------------|
---------------------1-------------|--------------3------1-------------|


|----3----|
Q Q Q E S S E S S E S S Q
-------------------------------------------|
--1----0---------0--L-1-L--L-3-L--L-5-L----|
--2----0----2----0--L-2-L--L-4-L--L--------|
------------3------------------------------|
-------------------------------------------|
-------------------------------------------|


TH TH TH TH TH TH TH TH
E E E E E E Q H
------------<>4--<>5p--<>4--------------------------||
-------<>5------------------<>5--<>4----<>5~--------||
--<>4-----------------------------------------------||
----------------------------------------------------||
----------------------------------------------------||
----------------------------------------------------||




Live lick (1995) 6:26-6:34 (no tempo markers)

T TH TH TH TH TH TH TH

E||-----------15------------------|--------<>3-------<>3--------------|
B||--9b---------------------------|-------------<>4-------<>4---------|
G||-------------------------------|------------------------------<>3--|
D||-------------------------------|-----8-----------------------------|
A||--------6------6--<>6--6--<>6--|--6--------------------------------|
E||-------------------------------|-----------------------------------|


TH TH TH

-----------------------------||
-------------------<>4-------||
--L--<>5----<>3--------------||
-----------------------------||
-----------------------------||
-----------------------------||

all th at the octave with the exception of first two cases of 4th fret at the b string in live lick - tap at 11 fret. I am not sure espeially aboout the second tab. Can You help me out?