Follow us on...
Follow us on Twitter Follow us on Facebook Watch us on YouTube
Register
Results 1 to 7 of 7
  1. #1
    Hang 'Em High
    Join Date
    06.17.03
    Age
    30
    Location
    New Brunswick Canada
    Posts
    6,980
    Favorite VH Album

    You name it
    Favorite VH Song

    See above
    Last Online

    12.10.17 @ 08:06 AM
    Likes
    310
    Liked 226 Times in 162 Posts

    Default Tabs for Not enough

    Anyone got accurate tabs with the solo for Not enough, it would be greatly appreciated.

  2. #2
    Super Duper Frontman YankeeRose's Avatar
    Join Date
    10.13.99
    Location
    I am a Van Halenized Canadian!
    Posts
    12,837
    Favorite VH Album

    OU812
    Favorite VH Song

    Why Can't This Be Love
    Last Online

    12.11.17 @ 05:55 PM
    Likes
    97
    Liked 197 Times in 123 Posts

    Default

    You would probably have better luck finding tabs for it in the guitar room. So I will move this topic there now.
    Right Now you're reading my post!


    I can't stand rap....people who can't sing do rap....you can sing rebellion as well as talk it....Hitler would have been in a rap band...

    -- John Entwistle

    2006 VHL Fantasy Hockey Champ!

  3. #3
    Hang 'Em High
    Join Date
    06.17.03
    Age
    30
    Location
    New Brunswick Canada
    Posts
    6,980
    Favorite VH Album

    You name it
    Favorite VH Song

    See above
    Last Online

    12.10.17 @ 08:06 AM
    Likes
    310
    Liked 226 Times in 162 Posts

    Default

    c'mon, help me out guys!

  4. #4
    Atomic Punk MF5150's Avatar
    Join Date
    06.05.04
    Age
    29
    Location
    Toronto
    Posts
    16,323
    Favorite VH Album

    Balance
    Favorite VH Song

    Seventh Seal/Me Wise Magic
    Last Online

    12.10.17 @ 12:20 PM
    Likes
    295
    Liked 411 Times in 246 Posts

    Default

    I have a program called Guitar Pro 4 and I have pretty good tabs for Not Enough on that program. But you's have to download it.
    My man, when you are fantasizing, don't go for attainable, you can get attainable at the local Applebee's. - Dave's Dreidel

  5. #5
    Hang 'Em High
    Join Date
    06.17.03
    Age
    30
    Location
    New Brunswick Canada
    Posts
    6,980
    Favorite VH Album

    You name it
    Favorite VH Song

    See above
    Last Online

    12.10.17 @ 08:06 AM
    Likes
    310
    Liked 226 Times in 162 Posts

    anything where I don't have to download? a link to it?

  6. #6
    Hang 'Em High
    Join Date
    06.17.03
    Age
    30
    Location
    New Brunswick Canada
    Posts
    6,980
    Favorite VH Album

    You name it
    Favorite VH Song

    See above
    Last Online

    12.10.17 @ 08:06 AM
    Likes
    310
    Liked 226 Times in 162 Posts

    Default

    oh c'mon, someone on here has them

  7. #7
    Atomic Punk MF5150's Avatar
    Join Date
    06.05.04
    Age
    29
    Location
    Toronto
    Posts
    16,323
    Favorite VH Album

    Balance
    Favorite VH Song

    Seventh Seal/Me Wise Magic
    Last Online

    12.10.17 @ 12:20 PM
    Likes
    295
    Liked 411 Times in 246 Posts

    Default

    HEre are the tabs for the guitar kick in to the song which happens twice. The second going into the solo.

    ------------------|-----0-----0------------|-------------------------|
    ------------------|--0--------1----0-------|-------------------------|
    ------------------|--2--------2--------2---|-------------------------|
    ------------------|--2--------2------------|--2--2--2----------------|
    ------------------|--0-----0---------------|--0--0--0----3--2--0-----|
    ------------------|------------------------|----------------------0--|



    --------------------------|----------------------------|
    -----------1-----------3--|-------------8--------------|
    --------3-----------5-----|---------10-------10----10/-|
    -----3-----------5--------|-----10---------------------|
    --1-----------3-----------|--8-------------------------|
    --------------------------|----------------------------|



    --------------------------|----------------------------|
    -----------1-----------3--|-------------8--------------|
    --3-----3-----------5-----|---------10-------10----10/-|
    -----3-----------5--------|-----10---------------------|
    --1-----------3-----------|--8-------------------------|
    --------------------------|----------------------------|


    The Solo:

    ------------------------|-----------------------------------------------|
    ----13b-------10--------|---13------------------------------------------|
    -------------------12b--|------12r-10-12-12r--10-12b-12b-12b-12b-12r-1|
    ------------------------|-----------------------------------------------|
    ------------------------|-----------------------------------------------|
    ------------------------|-----------------------------------------------|



    ------------------------------------|-------------------------------------|
    ------------------------------------|-------------------------------------|
    --12b-12--10--10b10-----------5-7b--|----7b-7b-7b-7b----------------------|
    --------------------12~-----7-------|-----------------5/3--3--3--3--------|
    ------------------------------------|-------------------------------5--3--|
    ------------------------------------|-------------------------------------|



    -------------------------------------|--------15-------------------------|
    ---------------------------13/15~----|--18~-------18r---15----18h--15h18r|
    -----------------12r-10--------------|---------------------17------------|
    --------------10--------12-----------|-----------------------------------|
    --5-5-5~---11------------------------|-----------------------------------|
    -------------------------------------|-----------------------------------|



    -----------------------20r---17-----|
    -----15h18h15~------17----------20b-|
    -----------------19-----------------|
    ------------------------------------|
    ------------------------------------|
    ------------------------------------|



    ----------------------------------------------|
    ----20b-20b-20b-20b---------------------------|
    ---------------------18/10--10--10--10~-------|
    ----------------------------------------12-10-|
    ----------------------------------------------|
    ----------------------------------------------|



    ----------------------------------|
    ----------------------------------|
    --10b10-------5-7-7r-5h7h5~---5-7-|
    --------12------------------7-----|
    ----------------------------------|
    ----------------------------------|



    -----------------------------------------------|
    --6b-6-----------------------------------------|
    -------7---------------------------------------|
    -------------------------------3h5h3h5h3h5h3h5-|
    -----------3h5h0-3h0-5h0-3h0-5-----------------|
    -----------------------------------------------|



    ------------------------------------|
    ----------------------------13h-10--|
    ---------------------10h-7----------|
    --5b5-3------3/7h-5-----------------|
    --------5~--------------------------|
    ------------------------------------|



    --13--10--15h-13--17h-15--20h-17-20r-17-----|
    ----------------------------------------20b-|
    --------------------------------------------|
    --------------------------------------------|
    --------------------------------------------|
    --------------------------------------------|



    --20-20---20-------------17--------10-------|
    -----20r-----20r18----20----18~--6----10-14b|
    -------------------19-----------------------|
    --------------------------------------------|
    --------------------------------------------|
    --------------------------------------------|



    ----10--------------------------------------------------|--------------------|
    -------13h10----10----------------18--20--20--20r-18----|--20~---------------|
    -------------12b---12r--10h12/19---------------------19-|--------------------|
    --------------------------------------------------------|--------------------|
    --------------------------------------------------------|--------------------|
    --------------------------------------------------------|--------------------|

    Mind you I don't know if these are perfect and I didn't make them, but they should be a great start. Just listen to the song and listen to these and go from there!!!
    Last edited by MF5150; 06.22.05 at 02:04 PM.
    My man, when you are fantasizing, don't go for attainable, you can get attainable at the local Applebee's. - Dave's Dreidel

 

 

Similar Threads

  1. TABS???
    By gravedigger in forum Guitar Room
    Replies: 0
    Last Post: 06.17.02, 04:38 PM
  2. Looking for a few VH tabs.
    By bcgvh in forum Guitar Room
    Replies: 7
    Last Post: 05.23.01, 02:36 PM
  3. vh tabs HELP!
    By the dream is over in forum Guitar Room
    Replies: 5
    Last Post: 04.01.01, 09:44 AM
  4. Tabs?
    By bcgvh in forum Guitar Room
    Replies: 1
    Last Post: 11.22.00, 12:53 PM
  5. Tabs.
    By bcgvh in forum Guitar Room
    Replies: 6
    Last Post: 07.23.00, 11:03 AM

Tags for this Thread

Posting Permissions

  • You may not post new threads
  • You may not post replies
  • You may not post attachments
  • You may not edit your posts
  •